[NEW] Chords Kunci Gitar My Chemical Romance Welcome To Black Parade [Tab] Lirik Terjemahan Arti Lagu

Verse: 

|--------------------------------------------|
|--------------------------------------------|
|--------------------------------------------|
|---5---------5----5----5----5----5----------|
|---5---------5----5----5----5----5----------|
|---3---------3----3----3----3----3-----3--2-|

Now come one, come all, to this tragic affair

|------------------------------------------|
|------------------------------------------|
|------------------------------------------|
|----2-----2---2--------2---2-------2--2---|
|----2-----2---2--------2---2-------2--2---|
|1---0-----0---0--------0---0-------0--0---|

 Wipe off that make up, for sin is to spare

|------------------------------------------------|
|------------------------------------------------|
|------------------------------------------------|
|2--11--------11--11---------11---11------11--11-|
|2--11--------11--11---------11---11------11--11-|
|0--9---------9---9----------9----9-------9---9--|

 So throw on the black dress mix in with the lot

|------------------------------------------------------|
|------------------------------------------------------|
|------------------------------------------------------|
|----------10-------10-10-----10-----10-------10----10-|
|----------10-------10-10-----10-----10-------10----10-|
|----------8--------8--8------8------8--------8-----8--|

 You Might wake up and notice you`re something your not

Chorus w/ heavy distortion:

|-------------------------------------------------------------------|
|-------------------------------------------------------------------|
|-------------------------------------------------------------------|
|--5--5--5--5-7-9-7-5-2--2--2--3--2--11-11-11-1112-11-10-10-10-1012-|
|--5--5--5--5-7-9-7-5-2--2--2--3--2--11-11-11-1112-11-10-10-10-1012-|
|--3--3--3--3-5-7-5-3-0--0--0--1--0--9--9--9--9-10-9--8--8--8--8-10-|

Outro

|---------------------------------------------|
|---------------------------------------------|
|---------------------------------------------|
|---------------------------------------------|
|-1010101012-12-12-12-14-14-14-14-15-15-15-15-|
|-8-8-8-8-10-10-10-10-12-12-12-12-13-13-13-13-|

Verse x2
Chorus
Verse
Chorus x2
outro